ISO-10303-21;
HEADER;
FILE_DESCRIPTION (( 'STEP AP214' ),
    '1' );
FILE_NAME ('Laterala mica 4^Ansamblu Tray.STEP',
    '2021-03-31T17:39:38',
    ( '' ),
    ( '' ),
    'SwSTEP 2.0',
    'SolidWorks 2020',
    '' );
FILE_SCHEMA (( 'AUTOMOTIVE_DESIGN' ));
ENDSEC;

DATA;
#1 = CARTESIAN_POINT ( 'NONE',  ( -81.50000000000005684, 2.000000000000001776, 278.0000000000000568 ) ) ;
#2 = LINE ( 'NONE', #81, #167 ) ;
#3 = ORIENTED_EDGE ( 'NONE', *, *, #104, .F. ) ;
#4 = ORIENTED_EDGE ( 'NONE', *, *, #104, .T. ) ;
#5 = MECHANICAL_DESIGN_GEOMETRIC_PRESENTATION_REPRESENTATION (  '', ( #15 ), #188 ) ;
#6 = VECTOR ( 'NONE', #194, 1000.000000000000000 ) ;
#7 = APPLICATION_CONTEXT ( 'automotive_design' ) ;
#8 = EDGE_LOOP ( 'NONE', ( #99, #86, #3, #114 ) ) ;
#9 = VECTOR ( 'NONE', #120, 1000.000000000000000 ) ;
#10 = ORIENTED_EDGE ( 'NONE', *, *, #52, .T. ) ;
#11 = LINE ( 'NONE', #70, #130 ) ;
#12 = EDGE_CURVE ( 'NONE', #71, #172, #129, .T. ) ;
#13 = STYLED_ITEM ( 'NONE', ( #89 ), #92 ) ;
#14 = CARTESIAN_POINT ( 'NONE',  ( -81.50000000000005684, 0.000000000000000000, 0.000000000000000000 ) ) ;
#15 = STYLED_ITEM ( 'NONE', ( #34 ), #154 ) ;
#16 = CARTESIAN_POINT ( 'NONE',  ( -78.50000000000005684, 142.0000000000000284, 278.0000000000000568 ) ) ;
#17 = LINE ( 'NONE', #67, #39 ) ;
#18 = DIRECTION ( 'NONE',  ( 0.000000000000000000, 0.000000000000000000, -1.000000000000000000 ) ) ;
#19 =( NAMED_UNIT ( * ) SI_UNIT ( $, .STERADIAN. ) SOLID_ANGLE_UNIT ( ) );
#20 =( NAMED_UNIT ( * ) PLANE_ANGLE_UNIT ( ) SI_UNIT ( $, .RADIAN. ) );
#21 = PRESENTATION_LAYER_ASSIGNMENT (  '', '', ( #13 ) ) ;
#22 = ORIENTED_EDGE ( 'NONE', *, *, #66, .T. ) ;
#23 = ORIENTED_EDGE ( 'NONE', *, *, #66, .F. ) ;
#24 = ORIENTED_EDGE ( 'NONE', *, *, #110, .F. ) ;
#25 = PLANE ( 'NONE',  #182 ) ;
#26 = UNCERTAINTY_MEASURE_WITH_UNIT (LENGTH_MEASURE( 1.000000000000000082E-05 ), #33, 'distance_accuracy_value', 'NONE');
#27 = SURFACE_SIDE_STYLE ('',( #164 ) ) ;
#28 = EDGE_CURVE ( 'NONE', #172, #191, #56, .T. ) ;
#29 = DIRECTION ( 'NONE',  ( 1.000000000000000000, 0.000000000000000000, 0.000000000000000000 ) ) ;
#30 =( GEOMETRIC_REPRESENTATION_CONTEXT ( 3 ) GLOBAL_UNCERTAINTY_ASSIGNED_CONTEXT ( ( #45 ) ) GLOBAL_UNIT_ASSIGNED_CONTEXT ( ( #64, #91, #153 ) ) REPRESENTATION_CONTEXT ( 'NONE', 'WORKASPACE' ) );
#31 = CARTESIAN_POINT ( 'NONE',  ( -78.50000000000005684, 2.000000000000001776, 1.999999999999994449 ) ) ;
#32 = PRODUCT_DEFINITION_SHAPE ( 'NONE', 'NONE',  #202 ) ;
#33 =( LENGTH_UNIT ( ) NAMED_UNIT ( * ) SI_UNIT ( .MILLI., .METRE. ) );
#34 = PRESENTATION_STYLE_ASSIGNMENT (( #155 ) ) ;
#35 = DIRECTION ( 'NONE',  ( 0.000000000000000000, -1.239088197126290570E-16, 1.000000000000000000 ) ) ;
#36 = VECTOR ( 'NONE', #44, 1000.000000000000000 ) ;
#37 = EDGE_CURVE ( 'NONE', #195, #191, #98, .T. ) ;
#38 = VERTEX_POINT ( 'NONE', #85 ) ;
#39 = VECTOR ( 'NONE', #169, 1000.000000000000000 ) ;
#40 = ORIENTED_EDGE ( 'NONE', *, *, #170, .F. ) ;
#41 = LINE ( 'NONE', #100, #158 ) ;
#42 = AXIS2_PLACEMENT_3D ( 'NONE', #165, #174, #196 ) ;
#43 = CARTESIAN_POINT ( 'NONE',  ( -78.50000000000005684, 2.000000000000001776, 278.0000000000000568 ) ) ;
#44 = DIRECTION ( 'NONE',  ( 0.000000000000000000, 0.000000000000000000, -1.000000000000000000 ) ) ;
#45 = UNCERTAINTY_MEASURE_WITH_UNIT (LENGTH_MEASURE( 1.000000000000000082E-05 ), #64, 'distance_accuracy_value', 'NONE');
#46 = DIRECTION ( 'NONE',  ( 0.000000000000000000, -0.000000000000000000, 1.000000000000000000 ) ) ;
#47 = FACE_OUTER_BOUND ( 'NONE', #87, .T. ) ;
#48 = COLOUR_RGB ( '',0.6470588235294117974, 0.6196078431372549211, 0.5882352941176470784 ) ;
#49 = FACE_OUTER_BOUND ( 'NONE', #161, .T. ) ;
#50 = LINE ( 'NONE', #31, #192 ) ;
#51 = SURFACE_STYLE_FILL_AREA ( #187 ) ;
#52 = EDGE_CURVE ( 'NONE', #191, #74, #55, .T. ) ;
#53 = CARTESIAN_POINT ( 'NONE',  ( -78.50000000000005684, 142.0000000000000284, 2.000000000000011546 ) ) ;
#54 = ORIENTED_EDGE ( 'NONE', *, *, #198, .T. ) ;
#55 = LINE ( 'NONE', #163, #36 ) ;
#56 = LINE ( 'NONE', #43, #63 ) ;
#57 = ORIENTED_EDGE ( 'NONE', *, *, #126, .F. ) ;
#58 = DIRECTION ( 'NONE',  ( -1.000000000000000000, -0.000000000000000000, -0.000000000000000000 ) ) ;
#59 = APPLICATION_PROTOCOL_DEFINITION ( 'draft international standard', 'automotive_design', 1998, #7 ) ;
#60 = CARTESIAN_POINT ( 'NONE',  ( -78.50000000000005684, 2.000000000000001776, 1.999999999999994449 ) ) ;
#61 = DIRECTION ( 'NONE',  ( 0.000000000000000000, 0.000000000000000000, -1.000000000000000000 ) ) ;
#62 = PRESENTATION_LAYER_ASSIGNMENT (  '', '', ( #15 ) ) ;
#63 = VECTOR ( 'NONE', #101, 1000.000000000000000 ) ;
#64 =( LENGTH_UNIT ( ) NAMED_UNIT ( * ) SI_UNIT ( .MILLI., .METRE. ) );
#65 = CARTESIAN_POINT ( 'NONE',  ( -81.50000000000005684, 142.0000000000000284, 2.000000000000011546 ) ) ;
#66 = EDGE_CURVE ( 'NONE', #111, #195, #11, .T. ) ;
#67 = CARTESIAN_POINT ( 'NONE',  ( -78.50000000000005684, 2.000000000000001776, 278.0000000000000568 ) ) ;
#68 = AXIS2_PLACEMENT_3D ( 'NONE', #53, #35, #186 ) ;
#69 = ORIENTED_EDGE ( 'NONE', *, *, #37, .T. ) ;
#70 = CARTESIAN_POINT ( 'NONE',  ( -81.50000000000005684, 142.0000000000000284, 278.0000000000000568 ) ) ;
#71 = VERTEX_POINT ( 'NONE', #173 ) ;
#72 = ORIENTED_EDGE ( 'NONE', *, *, #28, .T. ) ;
#73 = MECHANICAL_DESIGN_GEOMETRIC_PRESENTATION_REPRESENTATION (  '', ( #13 ), #30 ) ;
#74 = VERTEX_POINT ( 'NONE', #112 ) ;
#75 = ORIENTED_EDGE ( 'NONE', *, *, #12, .F. ) ;
#76 = DIRECTION ( 'NONE',  ( 0.000000000000000000, -1.000000000000000000, 0.000000000000000000 ) ) ;
#77 = LINE ( 'NONE', #16, #83 ) ;
#78 = EDGE_CURVE ( 'NONE', #38, #111, #41, .T. ) ;
#79 = DIRECTION ( 'NONE',  ( -1.000000000000000000, 0.000000000000000000, -0.000000000000000000 ) ) ;
#80 = CARTESIAN_POINT ( 'NONE',  ( -78.50000000000005684, 142.0000000000000284, 278.0000000000000568 ) ) ;
#81 = CARTESIAN_POINT ( 'NONE',  ( -78.50000000000005684, 142.0000000000000284, 278.0000000000000568 ) ) ;
#82 = FILL_AREA_STYLE_COLOUR ( '', #95 ) ;
#83 = VECTOR ( 'NONE', #181, 1000.000000000000000 ) ;
#84 = PRODUCT_RELATED_PRODUCT_CATEGORY ( 'part', '', ( #122 ) ) ;
#85 = CARTESIAN_POINT ( 'NONE',  ( -78.50000000000005684, 142.0000000000000284, 2.000000000000011546 ) ) ;
#86 = ORIENTED_EDGE ( 'NONE', *, *, #78, .F. ) ;
#87 = EDGE_LOOP ( 'NONE', ( #10, #24, #175, #72 ) ) ;
#88 = FILL_AREA_STYLE_COLOUR ( '', #48 ) ;
#89 = PRESENTATION_STYLE_ASSIGNMENT (( #144 ) ) ;
#90 = DIRECTION ( 'NONE',  ( -0.000000000000000000, 1.000000000000000000, 1.239088197126290570E-16 ) ) ;
#91 =( NAMED_UNIT ( * ) PLANE_ANGLE_UNIT ( ) SI_UNIT ( $, .RADIAN. ) );
#92 = MANIFOLD_SOLID_BREP ( 'Boss-Extrude1', #146 ) ;
#93 = CARTESIAN_POINT ( 'NONE',  ( -78.50000000000005684, 142.0000000000000284, 2.000000000000011546 ) ) ;
#94 = APPLICATION_PROTOCOL_DEFINITION ( 'draft international standard', 'automotive_design', 1998, #132 ) ;
#95 = COLOUR_RGB ( '',0.6470588235294117974, 0.6196078431372549211, 0.5882352941176470784 ) ;
#96 = AXIS2_PLACEMENT_3D ( 'NONE', #137, #76, #201 ) ;
#97 = ADVANCED_FACE ( 'NONE', ( #47 ), #25, .F. ) ;
#98 = LINE ( 'NONE', #148, #156 ) ;
#99 = ORIENTED_EDGE ( 'NONE', *, *, #170, .T. ) ;
#100 = CARTESIAN_POINT ( 'NONE',  ( -78.50000000000005684, 142.0000000000000284, 2.000000000000011546 ) ) ;
#101 = DIRECTION ( 'NONE',  ( -1.000000000000000000, -0.000000000000000000, -0.000000000000000000 ) ) ;
#102 = ORIENTED_EDGE ( 'NONE', *, *, #28, .F. ) ;
#103 = PLANE ( 'NONE',  #119 ) ;
#104 = EDGE_CURVE ( 'NONE', #134, #38, #200, .T. ) ;
#105 = PRODUCT_CONTEXT ( 'NONE', #132, 'mechanical' ) ;
#106 = CARTESIAN_POINT ( 'NONE',  ( -78.50000000000005684, 2.000000000000001776, 278.0000000000000568 ) ) ;
#107 =( NAMED_UNIT ( * ) PLANE_ANGLE_UNIT ( ) SI_UNIT ( $, .RADIAN. ) );
#108 = DIRECTION ( 'NONE',  ( -0.000000000000000000, -0.000000000000000000, 1.000000000000000000 ) ) ;
#109 = SURFACE_SIDE_STYLE ('',( #51 ) ) ;
#110 = EDGE_CURVE ( 'NONE', #134, #74, #50, .T. ) ;
#111 = VERTEX_POINT ( 'NONE', #117 ) ;
#112 = CARTESIAN_POINT ( 'NONE',  ( -81.50000000000005684, 2.000000000000001776, 1.999999999999994449 ) ) ;
#113 = DIRECTION ( 'NONE',  ( -0.000000000000000000, -0.000000000000000000, 1.000000000000000000 ) ) ;
#114 = ORIENTED_EDGE ( 'NONE', *, *, #110, .T. ) ;
#115 = CARTESIAN_POINT ( 'NONE',  ( -78.50000000000005684, 142.0000000000000284, 278.0000000000000568 ) ) ;
#116 = DIRECTION ( 'NONE',  ( 0.000000000000000000, 0.000000000000000000, -1.000000000000000000 ) ) ;
#117 = CARTESIAN_POINT ( 'NONE',  ( -81.50000000000005684, 142.0000000000000284, 2.000000000000011546 ) ) ;
#118 = DIRECTION ( 'NONE',  ( -1.000000000000000000, -0.000000000000000000, -0.000000000000000000 ) ) ;
#119 = AXIS2_PLACEMENT_3D ( 'NONE', #14, #29, #61 ) ;
#120 = DIRECTION ( 'NONE',  ( -0.000000000000000000, 1.000000000000000000, 1.239088197126290570E-16 ) ) ;
#121 = DIRECTION ( 'NONE',  ( 1.000000000000000000, 0.000000000000000000, 0.000000000000000000 ) ) ;
#122 = PRODUCT ( 'Laterala mica 4^Ansamblu Tray', 'Laterala mica 4^Ansamblu Tray', '', ( #105 ) ) ;
#123 = AXIS2_PLACEMENT_3D ( 'NONE', #157, #121, #18 ) ;
#124 = PLANE ( 'NONE',  #123 ) ;
#125 =( GEOMETRIC_REPRESENTATION_CONTEXT ( 3 ) GLOBAL_UNCERTAINTY_ASSIGNED_CONTEXT ( ( #133 ) ) GLOBAL_UNIT_ASSIGNED_CONTEXT ( ( #141, #20, #138 ) ) REPRESENTATION_CONTEXT ( 'NONE', 'WORKASPACE' ) );
#126 = EDGE_CURVE ( 'NONE', #71, #195, #77, .T. ) ;
#127 = ORIENTED_EDGE ( 'NONE', *, *, #52, .F. ) ;
#128 = ORIENTED_EDGE ( 'NONE', *, *, #12, .T. ) ;
#129 = LINE ( 'NONE', #115, #6 ) ;
#130 = VECTOR ( 'NONE', #113, 1000.000000000000000 ) ;
#131 = ORIENTED_EDGE ( 'NONE', *, *, #126, .T. ) ;
#132 = APPLICATION_CONTEXT ( 'automotive_design' ) ;
#133 = UNCERTAINTY_MEASURE_WITH_UNIT (LENGTH_MEASURE( 1.000000000000000082E-05 ), #141, 'distance_accuracy_value', 'NONE');
#134 = VERTEX_POINT ( 'NONE', #60 ) ;
#135 = CARTESIAN_POINT ( 'NONE',  ( -78.50000000000005684, 2.000000000000001776, 278.0000000000000568 ) ) ;
#136 = FACE_OUTER_BOUND ( 'NONE', #149, .T. ) ;
#137 = CARTESIAN_POINT ( 'NONE',  ( -78.50000000000005684, 142.0000000000000284, 278.0000000000000568 ) ) ;
#138 =( NAMED_UNIT ( * ) SI_UNIT ( $, .STERADIAN. ) SOLID_ANGLE_UNIT ( ) );
#139 = FACE_OUTER_BOUND ( 'NONE', #159, .T. ) ;
#140 = ADVANCED_FACE ( 'NONE', ( #152 ), #103, .F. ) ;
#141 =( LENGTH_UNIT ( ) NAMED_UNIT ( * ) SI_UNIT ( .MILLI., .METRE. ) );
#142 = AXIS2_PLACEMENT_3D ( 'NONE', #80, #116, #79 ) ;
#143 = ADVANCED_FACE ( 'NONE', ( #136 ), #184, .F. ) ;
#144 = SURFACE_STYLE_USAGE ( .BOTH. , #27 ) ;
#145 = DIRECTION ( 'NONE',  ( 0.000000000000000000, -1.000000000000000000, 0.000000000000000000 ) ) ;
#146 = CLOSED_SHELL ( 'NONE', ( #143, #97, #180, #162, #185, #140 ) ) ;
#147 = ORIENTED_EDGE ( 'NONE', *, *, #37, .F. ) ;
#148 = CARTESIAN_POINT ( 'NONE',  ( -81.50000000000005684, 142.0000000000000284, 278.0000000000000568 ) ) ;
#149 = EDGE_LOOP ( 'NONE', ( #69, #102, #75, #131 ) ) ;
#150 = PRODUCT_DEFINITION_CONTEXT ( 'detailed design', #7, 'design' ) ;
#151 = VECTOR ( 'NONE', #90, 1000.000000000000000 ) ;
#152 = FACE_OUTER_BOUND ( 'NONE', #160, .T. ) ;
#153 =( NAMED_UNIT ( * ) SI_UNIT ( $, .STERADIAN. ) SOLID_ANGLE_UNIT ( ) );
#154 = ADVANCED_BREP_SHAPE_REPRESENTATION ( 'Laterala mica 4^Ansamblu Tray', ( #92, #42 ), #125 ) ;
#155 = SURFACE_STYLE_USAGE ( .BOTH. , #109 ) ;
#156 = VECTOR ( 'NONE', #145, 1000.000000000000000 ) ;
#157 = CARTESIAN_POINT ( 'NONE',  ( -78.50000000000005684, 0.000000000000000000, 0.000000000000000000 ) ) ;
#158 = VECTOR ( 'NONE', #58, 1000.000000000000000 ) ;
#159 = EDGE_LOOP ( 'NONE', ( #128, #176, #4, #54 ) ) ;
#160 = EDGE_LOOP ( 'NONE', ( #147, #23, #40, #127 ) ) ;
#161 = EDGE_LOOP ( 'NONE', ( #22, #57, #193, #171 ) ) ;
#162 = ADVANCED_FACE ( 'NONE', ( #49 ), #168, .F. ) ;
#163 = CARTESIAN_POINT ( 'NONE',  ( -81.50000000000005684, 2.000000000000001776, 278.0000000000000568 ) ) ;
#164 = SURFACE_STYLE_FILL_AREA ( #190 ) ;
#165 = CARTESIAN_POINT ( 'NONE',  ( 0.000000000000000000, 0.000000000000000000, 0.000000000000000000 ) ) ;
#166 = DIRECTION ( 'NONE',  ( -0.000000000000000000, 1.000000000000000000, 0.000000000000000000 ) ) ;
#167 = VECTOR ( 'NONE', #108, 1000.000000000000000 ) ;
#168 = PLANE ( 'NONE',  #96 ) ;
#169 = DIRECTION ( 'NONE',  ( 0.000000000000000000, 0.000000000000000000, -1.000000000000000000 ) ) ;
#170 = EDGE_CURVE ( 'NONE', #74, #111, #179, .T. ) ;
#171 = ORIENTED_EDGE ( 'NONE', *, *, #78, .T. ) ;
#172 = VERTEX_POINT ( 'NONE', #135 ) ;
#173 = CARTESIAN_POINT ( 'NONE',  ( -78.50000000000005684, 142.0000000000000284, 278.0000000000000568 ) ) ;
#174 = DIRECTION ( 'NONE',  ( 0.000000000000000000, 0.000000000000000000, 1.000000000000000000 ) ) ;
#175 = ORIENTED_EDGE ( 'NONE', *, *, #189, .F. ) ;
#176 = ORIENTED_EDGE ( 'NONE', *, *, #189, .T. ) ;
#177 = PLANE ( 'NONE',  #68 ) ;
#178 = PRODUCT_DEFINITION_FORMATION_WITH_SPECIFIED_SOURCE ( 'ANY', '', #122, .NOT_KNOWN. ) ;
#179 = LINE ( 'NONE', #65, #9 ) ;
#180 = ADVANCED_FACE ( 'NONE', ( #197 ), #177, .F. ) ;
#181 = DIRECTION ( 'NONE',  ( -1.000000000000000000, -0.000000000000000000, -0.000000000000000000 ) ) ;
#182 = AXIS2_PLACEMENT_3D ( 'NONE', #106, #166, #46 ) ;
#183 = CARTESIAN_POINT ( 'NONE',  ( -81.50000000000005684, 142.0000000000000284, 278.0000000000000568 ) ) ;
#184 = PLANE ( 'NONE',  #142 ) ;
#185 = ADVANCED_FACE ( 'NONE', ( #139 ), #124, .T. ) ;
#186 = DIRECTION ( 'NONE',  ( 0.000000000000000000, -1.000000000000000000, -1.239088197126290570E-16 ) ) ;
#187 = FILL_AREA_STYLE ('',( #82 ) ) ;
#188 =( GEOMETRIC_REPRESENTATION_CONTEXT ( 3 ) GLOBAL_UNCERTAINTY_ASSIGNED_CONTEXT ( ( #26 ) ) GLOBAL_UNIT_ASSIGNED_CONTEXT ( ( #33, #107, #19 ) ) REPRESENTATION_CONTEXT ( 'NONE', 'WORKASPACE' ) );
#189 = EDGE_CURVE ( 'NONE', #172, #134, #17, .T. ) ;
#190 = FILL_AREA_STYLE ('',( #88 ) ) ;
#191 = VERTEX_POINT ( 'NONE', #1 ) ;
#192 = VECTOR ( 'NONE', #118, 1000.000000000000000 ) ;
#193 = ORIENTED_EDGE ( 'NONE', *, *, #198, .F. ) ;
#194 = DIRECTION ( 'NONE',  ( 0.000000000000000000, -1.000000000000000000, 0.000000000000000000 ) ) ;
#195 = VERTEX_POINT ( 'NONE', #183 ) ;
#196 = DIRECTION ( 'NONE',  ( 1.000000000000000000, 0.000000000000000000, 0.000000000000000000 ) ) ;
#197 = FACE_OUTER_BOUND ( 'NONE', #8, .T. ) ;
#198 = EDGE_CURVE ( 'NONE', #38, #71, #2, .T. ) ;
#199 = SHAPE_DEFINITION_REPRESENTATION ( #32, #154 ) ;
#200 = LINE ( 'NONE', #93, #151 ) ;
#201 = DIRECTION ( 'NONE',  ( 0.000000000000000000, -0.000000000000000000, -1.000000000000000000 ) ) ;
#202 = PRODUCT_DEFINITION ( 'UNKNOWN', '', #178, #150 ) ;
ENDSEC;
END-ISO-10303-21;
