ISO-10303-21;
HEADER;
FILE_DESCRIPTION (( 'STEP AP214' ),
    '1' );
FILE_NAME ('Laterala mica 5^Ansamblu Tray.STEP',
    '2021-03-27T13:38:57',
    ( '' ),
    ( '' ),
    'SwSTEP 2.0',
    'SolidWorks 2020',
    '' );
FILE_SCHEMA (( 'AUTOMOTIVE_DESIGN' ));
ENDSEC;

DATA;
#1 = DIRECTION ( 'NONE',  ( -0.000000000000000000, -0.000000000000000000, -1.000000000000000000 ) ) ;
#2 = PLANE ( 'NONE',  #43 ) ;
#3 = PRODUCT_DEFINITION_FORMATION_WITH_SPECIFIED_SOURCE ( 'ANY', '', #181, .NOT_KNOWN. ) ;
#4 = CARTESIAN_POINT ( 'NONE',  ( 121.4999999999999432, 145.0000000000000284, -558.0000000000001137 ) ) ;
#5 = CARTESIAN_POINT ( 'NONE',  ( 121.4999999999999432, 145.0000000000000284, -558.0000000000001137 ) ) ;
#6 = CARTESIAN_POINT ( 'NONE',  ( 118.4999999999999432, 5.000000000000004441, -558.0000000000001137 ) ) ;
#7 = PRODUCT_DEFINITION_CONTEXT ( 'detailed design', #168, 'design' ) ;
#8 = SURFACE_STYLE_USAGE ( .BOTH. , #109 ) ;
#9 =( LENGTH_UNIT ( ) NAMED_UNIT ( * ) SI_UNIT ( .MILLI., .METRE. ) );
#10 = MECHANICAL_DESIGN_GEOMETRIC_PRESENTATION_REPRESENTATION (  '', ( #173 ), #174 ) ;
#11 = MECHANICAL_DESIGN_GEOMETRIC_PRESENTATION_REPRESENTATION (  '', ( #48 ), #98 ) ;
#12 = EDGE_CURVE ( 'NONE', #148, #91, #33, .T. ) ;
#13 = VERTEX_POINT ( 'NONE', #17 ) ;
#14 =( NAMED_UNIT ( * ) SI_UNIT ( $, .STERADIAN. ) SOLID_ANGLE_UNIT ( ) );
#15 = ORIENTED_EDGE ( 'NONE', *, *, #166, .F. ) ;
#16 = EDGE_CURVE ( 'NONE', #13, #189, #135, .T. ) ;
#17 = CARTESIAN_POINT ( 'NONE',  ( 118.4999999999999432, 145.0000000000000284, -282.0000000000000568 ) ) ;
#18 = PRODUCT_DEFINITION ( 'UNKNOWN', '', #3, #7 ) ;
#19 = CARTESIAN_POINT ( 'NONE',  ( 118.4999999999999432, 145.0000000000000284, -558.0000000000001137 ) ) ;
#20 = ORIENTED_EDGE ( 'NONE', *, *, #111, .F. ) ;
#21 = PRESENTATION_LAYER_ASSIGNMENT (  '', '', ( #48 ) ) ;
#22 = LINE ( 'NONE', #89, #93 ) ;
#23 = DIRECTION ( 'NONE',  ( 0.000000000000000000, 0.000000000000000000, 1.000000000000000000 ) ) ;
#24 = CARTESIAN_POINT ( 'NONE',  ( 121.4999999999999432, 5.000000000000004441, -558.0000000000001137 ) ) ;
#25 = SURFACE_STYLE_FILL_AREA ( #81 ) ;
#26 = ORIENTED_EDGE ( 'NONE', *, *, #126, .T. ) ;
#27 = VERTEX_POINT ( 'NONE', #57 ) ;
#28 = SHAPE_DEFINITION_REPRESENTATION ( #150, #86 ) ;
#29 = VECTOR ( 'NONE', #42, 1000.000000000000000 ) ;
#30 = ORIENTED_EDGE ( 'NONE', *, *, #166, .T. ) ;
#31 = DIRECTION ( 'NONE',  ( 0.000000000000000000, 0.000000000000000000, 1.000000000000000000 ) ) ;
#32 = ADVANCED_FACE ( 'NONE', ( #175 ), #160, .F. ) ;
#33 = LINE ( 'NONE', #5, #184 ) ;
#34 = ADVANCED_FACE ( 'NONE', ( #87 ), #193, .T. ) ;
#35 = ORIENTED_EDGE ( 'NONE', *, *, #54, .F. ) ;
#36 = UNCERTAINTY_MEASURE_WITH_UNIT (LENGTH_MEASURE( 1.000000000000000082E-05 ), #9, 'distance_accuracy_value', 'NONE');
#37 = LINE ( 'NONE', #19, #65 ) ;
#38 = AXIS2_PLACEMENT_3D ( 'NONE', #79, #140, #183 ) ;
#39 = ORIENTED_EDGE ( 'NONE', *, *, #78, .T. ) ;
#40 =( NAMED_UNIT ( * ) PLANE_ANGLE_UNIT ( ) SI_UNIT ( $, .RADIAN. ) );
#41 = VECTOR ( 'NONE', #56, 1000.000000000000000 ) ;
#42 = DIRECTION ( 'NONE',  ( -0.000000000000000000, 1.000000000000000000, -0.000000000000000000 ) ) ;
#43 = AXIS2_PLACEMENT_3D ( 'NONE', #134, #192, #177 ) ;
#44 = CARTESIAN_POINT ( 'NONE',  ( 121.4999999999999432, 145.0000000000000284, -282.0000000000000568 ) ) ;
#45 = PLANE ( 'NONE',  #38 ) ;
#46 = SURFACE_STYLE_FILL_AREA ( #171 ) ;
#47 = APPLICATION_PROTOCOL_DEFINITION ( 'draft international standard', 'automotive_design', 1998, #168 ) ;
#48 = STYLED_ITEM ( 'NONE', ( #187 ), #86 ) ;
#49 = SURFACE_STYLE_USAGE ( .BOTH. , #102 ) ;
#50 = ORIENTED_EDGE ( 'NONE', *, *, #126, .F. ) ;
#51 = ADVANCED_FACE ( 'NONE', ( #115 ), #178, .F. ) ;
#52 = CARTESIAN_POINT ( 'NONE',  ( 121.4999999999999432, 5.000000000000004441, -282.0000000000000568 ) ) ;
#53 = EDGE_LOOP ( 'NONE', ( #202, #112, #200, #26 ) ) ;
#54 = EDGE_CURVE ( 'NONE', #189, #104, #37, .T. ) ;
#55 = DIRECTION ( 'NONE',  ( 1.000000000000000000, 0.000000000000000000, -0.000000000000000000 ) ) ;
#56 = DIRECTION ( 'NONE',  ( -0.000000000000000000, -0.000000000000000000, -1.000000000000000000 ) ) ;
#57 = CARTESIAN_POINT ( 'NONE',  ( 118.4999999999999432, 5.000000000000004441, -282.0000000000000568 ) ) ;
#58 = DIRECTION ( 'NONE',  ( 0.000000000000000000, -0.000000000000000000, -1.000000000000000000 ) ) ;
#59 = DIRECTION ( 'NONE',  ( 1.000000000000000000, -0.000000000000000000, -0.000000000000000000 ) ) ;
#60 = DIRECTION ( 'NONE',  ( 0.000000000000000000, -1.000000000000000000, 0.000000000000000000 ) ) ;
#61 = CLOSED_SHELL ( 'NONE', ( #51, #158, #127, #180, #34, #32 ) ) ;
#62 =( LENGTH_UNIT ( ) NAMED_UNIT ( * ) SI_UNIT ( .MILLI., .METRE. ) );
#63 = EDGE_LOOP ( 'NONE', ( #73, #20, #132, #84 ) ) ;
#64 = FILL_AREA_STYLE_COLOUR ( '', #123 ) ;
#65 = VECTOR ( 'NONE', #144, 1000.000000000000000 ) ;
#66 =( NAMED_UNIT ( * ) PLANE_ANGLE_UNIT ( ) SI_UNIT ( $, .RADIAN. ) );
#67 = VECTOR ( 'NONE', #169, 1000.000000000000000 ) ;
#68 = PRODUCT_RELATED_PRODUCT_CATEGORY ( 'part', '', ( #181 ) ) ;
#69 = DIRECTION ( 'NONE',  ( 1.000000000000000000, -0.000000000000000000, -0.000000000000000000 ) ) ;
#70 = CARTESIAN_POINT ( 'NONE',  ( 118.4999999999999432, 0.000000000000000000, 0.000000000000000000 ) ) ;
#71 = VECTOR ( 'NONE', #145, 1000.000000000000000 ) ;
#72 = UNCERTAINTY_MEASURE_WITH_UNIT (LENGTH_MEASURE( 1.000000000000000082E-05 ), #83, 'distance_accuracy_value', 'NONE');
#73 = ORIENTED_EDGE ( 'NONE', *, *, #12, .T. ) ;
#74 = CARTESIAN_POINT ( 'NONE',  ( 118.4999999999999432, 145.0000000000000284, -558.0000000000001137 ) ) ;
#75 = LINE ( 'NONE', #103, #157 ) ;
#76 = CARTESIAN_POINT ( 'NONE',  ( 118.4999999999999432, 145.0000000000000284, -282.0000000000000568 ) ) ;
#77 = CARTESIAN_POINT ( 'NONE',  ( 121.4999999999999432, 145.0000000000000284, -282.0000000000000568 ) ) ;
#78 = EDGE_CURVE ( 'NONE', #27, #118, #22, .T. ) ;
#79 = CARTESIAN_POINT ( 'NONE',  ( 118.4999999999999432, 5.000000000000004441, -558.0000000000001137 ) ) ;
#80 = PRESENTATION_LAYER_ASSIGNMENT (  '', '', ( #173 ) ) ;
#81 = FILL_AREA_STYLE ('',( #94 ) ) ;
#82 = VECTOR ( 'NONE', #108, 1000.000000000000000 ) ;
#83 =( LENGTH_UNIT ( ) NAMED_UNIT ( * ) SI_UNIT ( .MILLI., .METRE. ) );
#84 = ORIENTED_EDGE ( 'NONE', *, *, #129, .T. ) ;
#85 = EDGE_LOOP ( 'NONE', ( #30, #162, #194, #39 ) ) ;
#86 = ADVANCED_BREP_SHAPE_REPRESENTATION ( 'Laterala mica 5^Ansamblu Tray', ( #131, #101 ), #163 ) ;
#87 = FACE_OUTER_BOUND ( 'NONE', #136, .T. ) ;
#88 = LINE ( 'NONE', #6, #71 ) ;
#89 = CARTESIAN_POINT ( 'NONE',  ( 118.4999999999999432, 5.000000000000004441, -282.0000000000000568 ) ) ;
#90 = VECTOR ( 'NONE', #137, 1000.000000000000000 ) ;
#91 = VERTEX_POINT ( 'NONE', #4 ) ;
#92 = CARTESIAN_POINT ( 'NONE',  ( 118.4999999999999432, 145.0000000000000284, -558.0000000000001137 ) ) ;
#93 = VECTOR ( 'NONE', #149, 1000.000000000000000 ) ;
#94 = FILL_AREA_STYLE_COLOUR ( '', #122 ) ;
#95 = FACE_OUTER_BOUND ( 'NONE', #53, .T. ) ;
#96 = LINE ( 'NONE', #76, #185 ) ;
#97 = APPLICATION_PROTOCOL_DEFINITION ( 'draft international standard', 'automotive_design', 1998, #172 ) ;
#98 =( GEOMETRIC_REPRESENTATION_CONTEXT ( 3 ) GLOBAL_UNCERTAINTY_ASSIGNED_CONTEXT ( ( #72 ) ) GLOBAL_UNIT_ASSIGNED_CONTEXT ( ( #83, #66, #14 ) ) REPRESENTATION_CONTEXT ( 'NONE', 'WORKASPACE' ) );
#99 = ORIENTED_EDGE ( 'NONE', *, *, #16, .T. ) ;
#100 = DIRECTION ( 'NONE',  ( 0.000000000000000000, 0.000000000000000000, 1.000000000000000000 ) ) ;
#101 = AXIS2_PLACEMENT_3D ( 'NONE', #141, #100, #142 ) ;
#102 = SURFACE_SIDE_STYLE ('',( #46 ) ) ;
#103 = CARTESIAN_POINT ( 'NONE',  ( 118.4999999999999432, 145.0000000000000284, -558.0000000000001137 ) ) ;
#104 = VERTEX_POINT ( 'NONE', #190 ) ;
#105 = ORIENTED_EDGE ( 'NONE', *, *, #54, .T. ) ;
#106 = EDGE_LOOP ( 'NONE', ( #116, #179, #15, #191 ) ) ;
#107 = CARTESIAN_POINT ( 'NONE',  ( 121.4999999999999432, 0.000000000000000000, 0.000000000000000000 ) ) ;
#108 = DIRECTION ( 'NONE',  ( 0.000000000000000000, 0.000000000000000000, 1.000000000000000000 ) ) ;
#109 = SURFACE_SIDE_STYLE ('',( #25 ) ) ;
#110 = LINE ( 'NONE', #139, #147 ) ;
#111 = EDGE_CURVE ( 'NONE', #189, #91, #75, .T. ) ;
#112 = ORIENTED_EDGE ( 'NONE', *, *, #78, .F. ) ;
#113 = EDGE_LOOP ( 'NONE', ( #161, #50, #35, #170 ) ) ;
#114 = DIRECTION ( 'NONE',  ( 0.000000000000000000, 0.000000000000000000, 1.000000000000000000 ) ) ;
#115 = FACE_OUTER_BOUND ( 'NONE', #113, .T. ) ;
#116 = ORIENTED_EDGE ( 'NONE', *, *, #143, .F. ) ;
#117 = DIRECTION ( 'NONE',  ( -1.000000000000000000, 0.000000000000000000, 0.000000000000000000 ) ) ;
#118 = VERTEX_POINT ( 'NONE', #52 ) ;
#119 = LINE ( 'NONE', #121, #82 ) ;
#120 = CARTESIAN_POINT ( 'NONE',  ( 121.4999999999999432, 145.0000000000000284, -558.0000000000001137 ) ) ;
#121 = CARTESIAN_POINT ( 'NONE',  ( 121.4999999999999432, 5.000000000000004441, -558.0000000000001137 ) ) ;
#122 = COLOUR_RGB ( '',0.6470588235294117974, 0.6196078431372549211, 0.5882352941176470784 ) ;
#123 = COLOUR_RGB ( '',0.6470588235294117974, 0.6196078431372549211, 0.5882352941176470784 ) ;
#124 =( NAMED_UNIT ( * ) SI_UNIT ( $, .STERADIAN. ) SOLID_ANGLE_UNIT ( ) );
#125 = FACE_OUTER_BOUND ( 'NONE', #63, .T. ) ;
#126 = EDGE_CURVE ( 'NONE', #104, #146, #88, .T. ) ;
#127 = ADVANCED_FACE ( 'NONE', ( #159 ), #2, .F. ) ;
#128 = PRODUCT_CONTEXT ( 'NONE', #172, 'mechanical' ) ;
#129 = EDGE_CURVE ( 'NONE', #13, #148, #96, .T. ) ;
#130 = ORIENTED_EDGE ( 'NONE', *, *, #197, .T. ) ;
#131 = MANIFOLD_SOLID_BREP ( 'Boss-Extrude1', #61 ) ;
#132 = ORIENTED_EDGE ( 'NONE', *, *, #16, .F. ) ;
#133 = UNCERTAINTY_MEASURE_WITH_UNIT (LENGTH_MEASURE( 1.000000000000000082E-05 ), #62, 'distance_accuracy_value', 'NONE');
#134 = CARTESIAN_POINT ( 'NONE',  ( 118.4999999999999432, 145.0000000000000284, -282.0000000000000568 ) ) ;
#135 = LINE ( 'NONE', #74, #41 ) ;
#136 = EDGE_LOOP ( 'NONE', ( #105, #130, #176, #99 ) ) ;
#137 = DIRECTION ( 'NONE',  ( 0.000000000000000000, -1.000000000000000000, 0.000000000000000000 ) ) ;
#138 = LINE ( 'NONE', #167, #67 ) ;
#139 = CARTESIAN_POINT ( 'NONE',  ( 118.4999999999999432, 5.000000000000004441, -558.0000000000001137 ) ) ;
#140 = DIRECTION ( 'NONE',  ( 0.000000000000000000, 1.000000000000000000, -0.000000000000000000 ) ) ;
#141 = CARTESIAN_POINT ( 'NONE',  ( 0.000000000000000000, 0.000000000000000000, 0.000000000000000000 ) ) ;
#142 = DIRECTION ( 'NONE',  ( 1.000000000000000000, 0.000000000000000000, 0.000000000000000000 ) ) ;
#143 = EDGE_CURVE ( 'NONE', #91, #146, #198, .T. ) ;
#144 = DIRECTION ( 'NONE',  ( 0.000000000000000000, -1.000000000000000000, 0.000000000000000000 ) ) ;
#145 = DIRECTION ( 'NONE',  ( 1.000000000000000000, -0.000000000000000000, -0.000000000000000000 ) ) ;
#146 = VERTEX_POINT ( 'NONE', #24 ) ;
#147 = VECTOR ( 'NONE', #165, 1000.000000000000000 ) ;
#148 = VERTEX_POINT ( 'NONE', #77 ) ;
#149 = DIRECTION ( 'NONE',  ( 1.000000000000000000, -0.000000000000000000, -0.000000000000000000 ) ) ;
#150 = PRODUCT_DEFINITION_SHAPE ( 'NONE', 'NONE',  #18 ) ;
#151 = LINE ( 'NONE', #44, #29 ) ;
#152 = AXIS2_PLACEMENT_3D ( 'NONE', #92, #31, #55 ) ;
#153 = CARTESIAN_POINT ( 'NONE',  ( 118.4999999999999432, 145.0000000000000284, -558.0000000000001137 ) ) ;
#154 =( NAMED_UNIT ( * ) PLANE_ANGLE_UNIT ( ) SI_UNIT ( $, .RADIAN. ) );
#155 = PRESENTATION_STYLE_ASSIGNMENT (( #8 ) ) ;
#156 = AXIS2_PLACEMENT_3D ( 'NONE', #107, #164, #23 ) ;
#157 = VECTOR ( 'NONE', #69, 1000.000000000000000 ) ;
#158 = ADVANCED_FACE ( 'NONE', ( #95 ), #45, .F. ) ;
#159 = FACE_OUTER_BOUND ( 'NONE', #85, .T. ) ;
#160 = PLANE ( 'NONE',  #156 ) ;
#161 = ORIENTED_EDGE ( 'NONE', *, *, #143, .T. ) ;
#162 = ORIENTED_EDGE ( 'NONE', *, *, #129, .F. ) ;
#163 =( GEOMETRIC_REPRESENTATION_CONTEXT ( 3 ) GLOBAL_UNCERTAINTY_ASSIGNED_CONTEXT ( ( #133 ) ) GLOBAL_UNIT_ASSIGNED_CONTEXT ( ( #62, #40, #124 ) ) REPRESENTATION_CONTEXT ( 'NONE', 'WORKASPACE' ) );
#164 = DIRECTION ( 'NONE',  ( -1.000000000000000000, 0.000000000000000000, 0.000000000000000000 ) ) ;
#165 = DIRECTION ( 'NONE',  ( 0.000000000000000000, 0.000000000000000000, 1.000000000000000000 ) ) ;
#166 = EDGE_CURVE ( 'NONE', #118, #148, #151, .T. ) ;
#167 = CARTESIAN_POINT ( 'NONE',  ( 118.4999999999999432, 145.0000000000000284, -282.0000000000000568 ) ) ;
#168 = APPLICATION_CONTEXT ( 'automotive_design' ) ;
#169 = DIRECTION ( 'NONE',  ( -0.000000000000000000, 1.000000000000000000, -0.000000000000000000 ) ) ;
#170 = ORIENTED_EDGE ( 'NONE', *, *, #111, .T. ) ;
#171 = FILL_AREA_STYLE ('',( #64 ) ) ;
#172 = APPLICATION_CONTEXT ( 'automotive_design' ) ;
#173 = STYLED_ITEM ( 'NONE', ( #155 ), #131 ) ;
#174 =( GEOMETRIC_REPRESENTATION_CONTEXT ( 3 ) GLOBAL_UNCERTAINTY_ASSIGNED_CONTEXT ( ( #36 ) ) GLOBAL_UNIT_ASSIGNED_CONTEXT ( ( #9, #154, #182 ) ) REPRESENTATION_CONTEXT ( 'NONE', 'WORKASPACE' ) );
#175 = FACE_OUTER_BOUND ( 'NONE', #106, .T. ) ;
#176 = ORIENTED_EDGE ( 'NONE', *, *, #201, .T. ) ;
#177 = DIRECTION ( 'NONE',  ( -1.000000000000000000, 0.000000000000000000, 0.000000000000000000 ) ) ;
#178 = PLANE ( 'NONE',  #152 ) ;
#179 = ORIENTED_EDGE ( 'NONE', *, *, #12, .F. ) ;
#180 = ADVANCED_FACE ( 'NONE', ( #125 ), #186, .F. ) ;
#181 = PRODUCT ( 'Laterala mica 5^Ansamblu Tray', 'Laterala mica 5^Ansamblu Tray', '', ( #128 ) ) ;
#182 =( NAMED_UNIT ( * ) SI_UNIT ( $, .STERADIAN. ) SOLID_ANGLE_UNIT ( ) );
#183 = DIRECTION ( 'NONE',  ( 0.000000000000000000, 0.000000000000000000, 1.000000000000000000 ) ) ;
#184 = VECTOR ( 'NONE', #1, 1000.000000000000000 ) ;
#185 = VECTOR ( 'NONE', #59, 1000.000000000000000 ) ;
#186 = PLANE ( 'NONE',  #188 ) ;
#187 = PRESENTATION_STYLE_ASSIGNMENT (( #49 ) ) ;
#188 = AXIS2_PLACEMENT_3D ( 'NONE', #196, #60, #58 ) ;
#189 = VERTEX_POINT ( 'NONE', #153 ) ;
#190 = CARTESIAN_POINT ( 'NONE',  ( 118.4999999999999432, 5.000000000000004441, -558.0000000000001137 ) ) ;
#191 = ORIENTED_EDGE ( 'NONE', *, *, #195, .F. ) ;
#192 = DIRECTION ( 'NONE',  ( -0.000000000000000000, 0.000000000000000000, -1.000000000000000000 ) ) ;
#193 = PLANE ( 'NONE',  #199 ) ;
#194 = ORIENTED_EDGE ( 'NONE', *, *, #201, .F. ) ;
#195 = EDGE_CURVE ( 'NONE', #146, #118, #119, .T. ) ;
#196 = CARTESIAN_POINT ( 'NONE',  ( 118.4999999999999432, 145.0000000000000284, -558.0000000000001137 ) ) ;
#197 = EDGE_CURVE ( 'NONE', #104, #27, #110, .T. ) ;
#198 = LINE ( 'NONE', #120, #90 ) ;
#199 = AXIS2_PLACEMENT_3D ( 'NONE', #70, #117, #114 ) ;
#200 = ORIENTED_EDGE ( 'NONE', *, *, #197, .F. ) ;
#201 = EDGE_CURVE ( 'NONE', #27, #13, #138, .T. ) ;
#202 = ORIENTED_EDGE ( 'NONE', *, *, #195, .T. ) ;
ENDSEC;
END-ISO-10303-21;
